TabNabber Tabs   Musician Supported
  Music Tabs
Espa˝ol English
Franšais Русский
Artist: # A B C D E F G H I J K L M N O P Q R S T U V W X Y Z
Piano

Piano Tab, Chords



(1 from 1 votes)
11,365 Views, Last Update 11 years ago
by: Avery
guest
[Guest]
e|-----------------------------1----1--3-3-1---3-3-1------------------|
A|------1--1-3-1--1-3-5--5-3-5----5----------5--------5-3-5-3-1---1---|
D|--3-5---------------------------------------------------------5-----|
G|--------------------------------------------------------------------|

e|-----------------------------1----1--3-3-1---3-3-1------------------|
A|------1--1-3-1--1-3-5--5-3-5----5----------5---------5-3-1-3-5-3-1--|
D|--3-5---------------------------------------------------------------|
G|--------------------------------------------------------------------|

  first interlude:
e|------3—3p1---1--------------------3-3p1---1------------------------|
A|------------5---5-3-1-0---0-1------------5---5-3-1-0----------------|
D|---5--------------------5-------5--------------------5--------------|
G|--------------------------------------------------------------------|

e|------3—3p1---1-----------------------------------------------------|
A|------------5---5-3-1-0---0-1---3-3-3-3h5-3/1-0-1-0-----------------|
D|---5--------------------5---------------------------3-5-------------|
G|--------------------------------------------------------------------|

  second interlude:
e|-------------------------------------------------------|
A|-1-------1-------5-3-0-------0-------1-------1---------|
D|---5-5-5---5-5-5-------3-3-3---3-3-3---5-5-5---5-5-5---|
G|-------------------------------------------------------|

e|----------------------------|
A|--3-3-3-3h5-3/1-0-1-0-------|
D|----------------------3-5---|
G|----------------------------|




Login to Edit
Edit
YouTube
Video
View Sheet Music
Sheet
Music
Voice / Instrument / Track Legend
Instr.
Map
Print
Speed:
Play Intro (login for the full song)
Play
Intro
Sustain:
Download midi (intro) ...

1 Votes
5 star:  (0)
4 star:  (0)
3 star:  (0)
2 star:  (0)
1 star: 100%  (1)
0 star:  (0)
 Rate:
5 star
4 star
3 star
2 star
1 star
 

Comments (0)
 

No comments yet...

Comment on this tab   -   Unhelpful comments are exterminated.
  Your Guest Name:
      [Member Login]
  Comments:
 

Don't understand the tab?
See "How to Read Piano Tabs".
Supported tags:
<i>italics</i>
<b>bold</b>
<u>underline</u>
<tab>tab lines</tab>
  Are you a spam robot?

If not, solve the equation:




[453 TabNabbers online]
©2021 TabNabber.com - Musician Supported Contact us Advertising Merchandise Privacy Policy Terms of Use facebook Twitter