TabNabber Tabs   Musician Supported
  Music Tabs
Espa˝ol English
Franšais Русский
Artist: # A B C D E F G H I J K L M N O P Q R S T U V W X Y Z
guitar

Guitar Tab, Chords



(0 from 0 votes)
1,505 Views, Last Update 1 year ago
by: Anonymous
guest
[Guest]
[Intro:]

e|-----------------------------------------------------------------(5)-------|
B|---8/7---5-------------------------------------------------------(5)-------|
G|-----------7-4---------4-------------7-4-----------7-------------(5)-------| repeat the Intro again
D|-----------------7-5-7---5-----4h5---------7p5h7/9-------------------------|
A|-----------------------------7---------------------------------------------|
E|---------------------------------------------------------------------------|

[Pre chorus Part 1]

e|--7-7--------------7---7--------12---7--7----------7---------7-------------|
B|--8-7---8-8-8------7-8-7-8-8-8--12---8--7--8-8-8---7--8-8-8--7--8-----12---|
G|--9-7---7-7-7------7-7-7-7-7-7--12---9--7--7-7-7---7--7-7-7--7--7-----12---|
D|--------9-9-9--------9---9-9-9-------------9-9-9------9-9-9-----9-----12---|
A|---------------------------------------------------------------------------|
E|---------------------------------------------------------------------------|

[Pre chorus Part 2]

e|-------------------------------------------------------------------3-------|
B|--5-5-5-5-5----7-7-7-7-7---/15-15-15----12-12-12----5-5-5-5-5-5-5--4-7-7-7-|
G|--5-5-5-5-5----7-7-7-7-7---/14-14-14----12-12-12----5-5-5-5-5-5-5--5-7-7-7-|
D|--5-5-5-5-5----7-7-7-7-7---/14-14-14----12-12-12----5-5-5-5-5-5-5--5-7-7-7-|
A|---------------------------------------------------------------------------|
E|---------------------------------------------------------------------------|

[Chourus Part 1]

e|----------------7-7----2--2------------------------------------------------|
B|---5-5----7-7---8-8----3--3------------------------------------------------| repeat The chourus Part 1 again
G|---5-5----7-7---9-9----4--4------------------------------------------------|
D|---5-5----7-7---9-9----4--4------------------------------------------------|
A|---------------------------------------------------------------------------|
E|---------------------------------------------------------------------------|

[Chourus Part 2]
      
e|-------------------7--7----------------------------------------------------|
B|---5-5------4-4----8--8-------15--15--15--15-------------------------------| Part1 play 2 times   
G|---5-5------4-4----9--9-------12--12--12--12-------------------------------| and Part2 too
D|---5-5------4-4----9--9-------12--12--12--12-------------------------------|
A|---------------------------------------------------------------------------|
E|---------------------------------------------------------------------------|

[Bridge Solo]

e|--------------------7-7-7------------10-10-10---------7-7-7-/--------------|
B|-8--8--8-----7-7-7--8-8-8----7---7---8--8--8---7-7-7--8-8-8-/15-15-15------|
G|-9--9--9-----7-7-7--9-9-9----7---7---9--9--9---7-7-7--9-9-9-/14-14-14------|
D|-10-10-10----7-7-7-----------7h9-7h9-10-10-10--7-7-7-----------------------|
A|---------------------------------------------------------------------------|
E|---------------------------------------------------------------------------|

e|-7-7-7--3-3-/7-7-----------------------------------------------------------|
B|-8-8-8--4-4-/8-8-----------------------------------------------------------|
G|-9-9-9--3-3-/7-7-----------------------------------------------------------|
D|--------5-5-/9-9-----------------------------------------------------------|
A|---------------------------------------------------------------------------|
E|---------------------------------------------------------------------------|

e|-----12-12-h14-h15--/7--7-7-7----------------------------------------------|
B|-7-/-12-12--12--12--/7--7-7-7---7-7-7----8-8-8-8-8-8-8---------------------|
G|-7-/-12-12--12--12--/7--8-8-8---7-7-7----7-7-7-7-7-7-7---------------------|
D|-7-/--------------------9-9-9---7-7-7----9-9-9-9-9-9-9---------------------|
A|---------------------------------------------------------------------------|
E|---------------------------------------------------------------------------|

[Ending]

e|-----------------------------------------------------------------------------|
B|---5----5----/7---7----8----8----7---7-----5----5----7----8----8---12---12---|
G|-----5----5--/--7---7----7----7----7---7-----5----5----7----7----7---12---12-|
D|-----5----5--/--7---7----9----9----7---7-----5----5----7----9----9---12---12-|
A|-----------------------------------------------------------------------------|
E|-----------------------------------------------------------------------------|


Login to Edit
Edit
YouTube
Video
View Sheet Music
Sheet
Music
Print
Speed:
Play Intro (login for the full song)
Play
Intro
Sustain:
Download midi (intro) ...

 Rate:
5 star
4 star
3 star
2 star
1 star
 

Comments (0)
 

No comments yet...

Comment on this tab   -   Unhelpful comments are exterminated.
  Your Guest Name:
      [Member Login]
  Comments:
 

Don't understand the tab?
See "How to Read Guitar Tabs".
Supported tags:
<i>italics</i>
<b>bold</b>
<u>underline</u>
<tab>tab lines</tab>
  Are you a spam robot?

If not, solve the equation:




[636 TabNabbers online]
©2020 TabNabber.com - Musician Supported Contact us Advertising Merchandise Privacy Policy Terms of Use facebook Twitter