TabNabber Tabs   Musician Supported
  Music Tabs
Espa˝ol English
Franšais Русский
Artist: # A B C D E F G H I J K L M N O P Q R S T U V W X Y Z
guitar

Guitar Tab, Chords



(0 from 0 votes)
5,921 Views, Last Update 5 years ago
by: ryxe
guest
[Guest]
E|---------------------------------------------------------|
B|---------------------------------------------------------|
G|--------------------------------------------------7-7----|
D|----------------^-------------------------^---^---7-7----|
A|----------------3-----------3-------------3---3---5-5----|
E|--0-3-4-5-3-4-5---5-3-2-3-5---3-4-5-3-4-5---5---5--------|


E||---------------------------------------------------------
B||---------------------------------------------------------
G||----7-7--------------------------------------------------
D||----7-7---^---^-------------------------^----------------
A||----5-5---3---3-------------3-----------3----------------
E||--------5---5---5-4-3-5-4-3---5-3-2-3-5---5-4-3-5-4-3-0--


E||-------------------------------------------------------------
B||-------------------------------------------------------------
G||-------------------------------------------------------------
D||--------------^---^-------------------------^----------------
A||--------)3(---3---3-------------3-----------3----------------
E||--5-4-3--8--5---5---5-4-3-5-4-3---5-3-2-3-5---5-4-3-5-4-3-0--


E||---------------------------------------------------------
B||---------------------------------------------------------
G||----7-7--------------------------------------------------
D||----7-7---^---^-------------------------^----------------
A||----5-5---3---3-------------3-----------3----------------
E||--------5---5---5-4-3-5-4-3---5-3-2-3-5---5-4-3-5-4-3-0--

E||---------------------------------------------------------
B||---------------------------------------------------------
G||----7-7--------------------------------------------------
D||----7-7---^---^-------------------------^----------------
A||----5-5---3---3-------------3-----------3----------------
E||--------5---5---5-4-3-5-4-3---5-3-2-3-5---5-4-3-5-4-3-0--


E||----------------------------------------------------------------------
B||----------------------------------------------------------------------
G||----------------------------------------------------------------------
D||-----------------------^---^-------------------------^----------------
A||-----------------)3(---3---3-------------3-----------3----------------
E||---5p3p5p3-5-4-3--8--5---5---5-4-3-5-4-3---5-3-2-3-5---5-4-3-5-4-3-0--


B|1 |E|G|DIR

  G||A  5C 5|D  5|D 5|A 5

E||-----------------------^-----^-------------0------------------
B||----^------------------^-----^-------------2------------------
G||---)5()7()9(---------5-7---5-7---7---------2--5--7---7--------
D||----5--7--9--7-6-5-7-----7-------7--7--5---2--5--7---7--7--5--
A||----3--5--7----------------------5--7--5---0--3--5---5--7--5--
E||------------------------------------5--3----------------5--3--


PA|2 TR

  (G|)?seton drohc eht tuoba serac ohw ,tinmad do

E||-------------------------------------------------------------
B||-------------------------------------------------------------
G||----------------6-5--7-6-5--7-----------------6-5--7-6-5--7--
D||-------6-7--6-7-6-5--7-6-5--7-------------3---6-5--7-6-5--7--
A||-------4-5--4-5-4-3--5-4-3--5-5-3-0-5-3-5---5-4-3--5-4-3--5--
E||-------------------------------------------------------------

E||-------------------------------------------------------------
B||-------------------------------------------------------------
G||----------------6-5--7-6-5--7-----------------6-5--7-6-5--7--
D||-------6-7--6-7-6-5--7-6-5--7-------------3---6-5--7-6-5--7--
A||-------4-5--4-5-4-3--5-4-3--5-5-3-0-5-3-5---5-4-3--5-4-3--5--
E||-------------------------------------------------------------

E||-------------------------------------------------------------
B||-------------------------------------------------------------
G||----------------6-5--7-6-5--7-----------------6-5--7-6-5--7--
D||---4-7-6-7--6-7-6-5--7-6-5--7-------------3---6-5--7-6-5--7--
A||---6-5-4-5--4-5-4-3--5-4-3--5-5-3-0-5-3-5---5-4-3--5-4-3--5--
E||-------------------------------------------------------------

E||---------------------------------------^^----------------------------------
B||-----------------------------------21--51----------------------------------
G||-------------11-41-11-41--61-51-41-----------------------------------------
D||-------21-41------------------------------------------------8-7--9-8-7--9--
A||----41-------------------------------------7-6-5--------5-7-6-5--7-6-5--7--
E||-------------------------------------------------7--0-7--------------------

E||-----------------------------
B||---------^^-----^^-----^^----
G||---------^^-----^^-----^^----
D||---)41(--21-41--21-41--21-41-
A||-----------------------------
E||-----------------------------

PA|3 TR

E||---------------------------------------------------------
B||---------------------------------------------------------
G||----7-7--------------------------------------------------
D||----7-7---^---^-------------------------^----------------
A||----5-5---3---3-------------3-----------3----------------
E||--------5---5---5-4-3-5-4-3---5-3-2-3-5---5-4-3-5-4-3-0--

E||-------------------------------------------------------------
B||-------------------------------------------------------------
G||-------------------------------------------------------------
D||--------------^---^-------------------------^----------------
A||--------)3(---3---3-------------3-----------3----------------
E||--5-4-3--8--5---5---5-4-3-5-4-3---5-3-2-3-5---5-4-3-5-4-3-0--

E||---------------------------------------------------------
B||---------------------------------------------------------
G||----7-7--------------------------------------------------
D||----7-7---^---^-------------------------^----------------
A||----5-5---3---3-------------3-----------3----------------
E||--------5---5---5-4-3-5-4-3---5-3-2-3-5---5-4-3-5-4-3-0--

E||----------------------------------------------------------------------
B||----------------------------------------------------------------------
G||----------------------------------------------------------------------
D||-----------------------^---^-------------------------^----------------
A||-----------------)3(---3---3-------------3-----------3----------------
E||---5p3p5p3-5-4-3--8--5---5---5-4-3-5-4-3---5-3-2-3-5---5-4-3-5-4-3-0--

E||-------------------------------^-----^-------------0------------------
B||------------^------------------^-----^-------------2------------------
G||-----------)5()7()9(---------5-7---5-7---7---------2--5--7---7--------
D||-------\7---5--7--9--7-6-5-7-----7-------7--7--5---2--5--7---7--7--5--
A||-------\7---3--5--7----------------------5--7--5---0--3--5---5--7--5--
E||-------\5-----------------------------------5--3----------------5--3--


==========================================================================


OK 7-STRING| WIE|LD|E|RS . . . instead of this :

E||-------------------------------------------------------------
B||-------------------------------------------------------------
G||----------------6-5--7-6-5--7-----------------6-5--7-6-5--7--
D||-------6-7--6-7-6-5--7-6-5--7-------------3---6-5--7-6-5--7--
A||-------4-5--4-5-4-3--5-4-3--5-5-3-0-5-3-5---5-4-3--5-4-3--5--
E||-------------------------------------------------------------

do this . . .

E||-----------------------------------------------------------
B||-----------------------------------------------------------
G||----------------6-5--7-6-5--7---------------6-5--7-6-5--7--
D||-------6-7--6-7-6-5--7-6-5--7---------------6-5--7-6-5--7--
A||-------4-5--4-5-4-3--5-4-3--5-4-3-------3-5-4-3--5-4-3--5--
E||----------------------------------5---5--------------------
B||------------------------------------3----------------------









Login to Edit
Edit
YouTube
Video
View Sheet Music
Sheet
Music
Print
Speed:
Play Intro (login for the full song)
Play
Intro
Sustain:
Download midi (intro) ...

 Rate:
5 star
4 star
3 star
2 star
1 star
 

Comments (0)
 

No comments yet...

Comment on this tab   -   Unhelpful comments are exterminated.
  Your Guest Name:
      [Member Login]
  Comments:
 

Don't understand the tab?
See "How to Read Guitar Tabs".
Supported tags:
<i>italics</i>
<b>bold</b>
<u>underline</u>
<tab>tab lines</tab>
  Are you a spam robot?

If not, solve the equation:




[409 TabNabbers online]
©2020 TabNabber.com - Musician Supported Contact us Advertising Merchandise Privacy Policy Terms of Use facebook Twitter