TabNabber Tabs   Musician Supported
  Music Tabs
Espa˝ol English
Franšais Русский
Artist: # A B C D E F G H I J K L M N O P Q R S T U V W X Y Z
electric guitar

Guitar Tab, Chords



(0 from 0 votes)
4,469 Views, Last Update 6 years ago
by: Anonymous
guest
[Guest]
e||------------------------------------------------------------------------
b||-------------------------------------------------------------9-21--~9---
g||----9-11/9------8-9-----------------------------9p11--9-11--------------
d||-11--------9-11-----11-9------9-11-9-------9-11-------------------------
a||-------------------------11-9--------11-9-------------------------------
e||------------------------------------------------------------------------

e||-------------------41-41-21-21-21-11-11-9-------------------------------
b||-------------------------------------------21-9-21----------------------
g||---------------------------------------------------31/11--9-11-9--------
d||-----------------------------------------------------------------11-9---
a||------------------------------------------------------------------------
e||------------------------------------------------------------------------

e||--21--11--9----61-81-91-91-91-81-81-61---
b||--21--11--9------------------------------
g||-----------------------------------------
d||-----------------------------------------
a||-----------------------------------------
e||-----------------------------------------








Login to Edit
Edit
YouTube
Video
View Sheet Music
Sheet
Music
Print
Speed:
Play Intro (login for the full song)
Play
Intro
Sustain:
Download midi (intro) ...

 Rate:
5 star
4 star
3 star
2 star
1 star
 

Comments (0)
 

No comments yet...

Comment on this tab   -   Unhelpful comments are exterminated.
  Your Guest Name:
      [Member Login]
  Comments:
 

Don't understand the tab?
See "How to Read Guitar Tabs".
Supported tags:
<i>italics</i>
<b>bold</b>
<u>underline</u>
<tab>tab lines</tab>
  Are you a spam robot?

If not, solve the equation:




[507 TabNabbers online]
©2020 TabNabber.com - Musician Supported Contact us Advertising Merchandise Privacy Policy Terms of Use facebook Twitter