TabNabber Tabs   Musician Supported
  Music Tabs
Espa˝ol English
Franšais Русский
Artist: # A B C D E F G H I J K L M N O P Q R S T U V W X Y Z
Piano

Piano Tab, Chords



(0 from 0 votes)
6,558 Views, Last Update 6 years ago
by: TheMusicKing
guest

New Tabber
[New Recruit]
INTRO:

     Aadd11                                                     Amadd11
4|-|---------d-F-G-a-G-F-d-G-F-d---|----d-F-G-a-G-F-d-G-F-d---|----------d-f-G-a-G-f-d-G-f-d---|-
3|-|--d--------------------------d-|--d---------------------d-|--d---------------------------d-|-

                             Am6add11
----------0---------------|-----------------0---------------|----------0---------------|
--------4---4-----4-------|---------------4---4-----4-------|--------4---4-----4-------|
------5-------5-----5-----|-------------5-------5-----5-----|------5-------5-----5-----|
----7-----------7-----7---|-----------4-----------4-----4---|----4-----------4-----4---|
--0---------------------0-|--0----------------------------0-|--0---------------------0-|
--------------------------|---------------------------------|--------------------------|

  Dm6add9                                                       Dadd9
------------------0---------------|----------0---------------|--------------0---------------|
----------------3---3-----3-------|--------3---3-----3-------|------------2---2-----2-------|
--------------4-------4-----4-----|------4-------4-----4-----|----------4-------4-----4-----|
------------3-----------3-----3---|----3-----------3-----3---|--------2-----------2-----2---|
--0-----------------------------0-|--0---------------------0-|--0-------------------------0-|
----------------------------------|--------------------------|------------------------------|

                             Dmadd9
----------0---------------|---------------0---------------|----------0---------------|
--------2---2-----2-------|-------------0---0-----0-------|--------0---0-----0-------|
------4-------4-----4-----|-----------5-------5-----5-----|------5-------5-----5-----|
----2-----------2-----2---|---------2-----------2-----2---|----2-----------2-----2---|
--0---------------------0-|--0--------------------------0-|--0---------------------0-|
--------------------------|-------------------------------|--------------------------|

  Cmaj7                                                       Asus2/F#
----------------0---------------|----------0---------------|----------------0---------------|
--------------0---0-----0-------|--------0---0-----0-------|--------------0---0-----0-------|
------------5-------5-----5-----|------5-------5-----5-----|------------2-------2-----2-----|
----------2-----------2-----2---|----2-----------2-----2---|----------2-----------2-----2---|
--------------------------------|--------------------------|--------------------------------|
--3---------------------------3-|--3---------------------3-|--2---------------------------2-|

                             Asus2/F
----------0---------------|-----------------0---------------|----------0---------------|
--------0---0-----0-------|---------------0---0-----0-------|--------0---0-----0-------|
------2-------2-----2-----|-------------2-------2-----2-----|------2-------2-----2-----|
----2-----------2-----2---|-----------2-----------2-----2---|----2-----------2-----2---|
--------------------------|---------------------------------|--------------------------|
--2---------------------2-|--1----------------------------1-|--1---------------------1-|

  Asus2
--------------0---------------|----------0---------------|
------------0---0-----0-------|--------0---0-----0-------|
----------2-------2-----2-----|------2-------2-----2-----|
--------2-----------2-----2---|----2-----------2-----2---|
------------------------------|--------------------------|
--0-------------------------0-|--0---------------------0-|

  E                          E

----------0---------------|--0------------|
--------0---0-----0-------|--0------------|
------1-------1-----1-----|--1------------|
----2-----------2-----2---|--2------------|
------------------------2-|--2------------|
--0-----------------------|--0------------|

VERSE 1:

  A                          Dm                         G
5|-|--------------------------|--------------------------|--------------c-----------|-
4|-|--------d-----a--F--d-----|-----d--g--d--A--g--d-----|--------c--------e--c-----|-
3|-|--d--a-----a-----------a--|--g--------------------g--|--c--g-----g-----------g--|-

  C                          F                          E
--------------0-----------|--------------1-----------|--------------0-----------|
-----------------1--------|-----------------1--------|-----------------0--------|
--------0-----------0-----|--------2-----------2-----|--------1-----------1-----|
-----2-----2-----------2--|-----3-----3-----------3--|-----2-----2-----------2--|
--3-----------------------|--------------------------|--------------------------|
--------------------------|--1-----------------------|--0-----------------------|

  A
--------------0----------|--------------0-----------||   X    X  4   4-|
-------------------------|-----------------2--------||    X  X   4   4-|
--------2----------2-----|--------2-----------2-----||     XX    4   4-|
-----2-----2----------2--|-----2-----2-----------2--||     XX    44444-|
--0----------------------|--0-----------------------||    X  X       4-|
-------------------------|--------------------------||   X    X      4-|


VERSE 2:

  A                                 Dm
4|-|-----d---F-d---d-----d---F-d---d-|----d-g-d-A-g-d-g---d-g-d-A-g-d-g-|-
3|-|-d-a---a-----a---d-a---a-----a---|-g----------------g---------------|-

  G                               C
-----------------3-------3-----|------------------0---------------|
---------0---------------------|----------1---------1-----1-------|
-----0-----0---0---0---0---0---|------0-----0---0-----0-----0---0-|
---0---0-----0-------0-------0-|----2---2-----2---------2-----2---|
-------------------------------|--3-------------------------------|
-3-----------------------------|----------------------------------|

  F                                   E
-------------------1-------1-------|------------------0-------0-------|
-----------1---------1-------1-----|----------0-----------------------|
-------2-----2---2-----2-------2---|------1-----1---1---1---1---1---1-|
-----3---3-----3---------3-------3-|----2---2-----2-------2-------2---|
-----------------------------------|----------------------------------|
--1--------------------------------|--0-------------------------------|

  A                                  Am
------------------0---------------|-----------0---------------0-------||
----------2---------------2-------|--1----------------------0---------||
------2-----2---2---2---2---2---2-|-----2---2---2---2-1---1-----1---1-||
----2---2-----2-------2-------2---|-------2-------2-----2---------2---||
--0-------------------------------|-----------------------------------||
----------------------------------|-----------------------------------||

BRIDGE:
  A                                  Dm
------------------0-------0-------|-----------1-------1-------1-------|
----------2-----------------------|-------3-----3---3---3---3---3---3-|
------2-----2---2---2---2---2---2-|-----2---2-----2-------2-------2---|
----2---2-----2-------2-------2---|--0--------------------------------|
--0-------------------------------|-----------------------------------|
----------------------------------|-----------------------------------|

  G                                  C
------------------3-------3-------|------------------0-------0-------|
----------0-----------------------|----------1---------1-------1---1-|
------0-----0---0---0---0---0---0-|------0-----0---0-----0-------0---|
----0---0-----0-------0-------0---|----2---2-----2---------2---------|
----------------------------------|--3-------------------------------|
--3-------------------------------|----------------------------------|

  F                                  E
-------------------1---------------|------------------0-------0-------|
-----------1---------------1-------|----------0-----------------------|
-------2-----2---2---2---2---2---2-|------1-----1---1---1---1---1---1-|
-----3---3-----3-------3-------3---|----2---2-----2-------2-------2---|
-----------------------------------|----------------------------------|
--1--------------------------------|--0-------------------------------|


  A
------------------0---------------|------------------0---------------||
----------2---------------2-------|----------2---------------2-------||
------2-----2---2---2---2---2---2-|------2-----2---2---2---2---2---2-||
----2---2-----2-------2-------2---|----2---2-----2-------2-------2---||
--0-------------------------------|--0-------------------------------||
----------------------------------|----------------------------------||


    A                                 Dm
||------------------0--------------|-----------1-------1-------1-------|
||----------2-------------2--------|-------3-----3---3---3---3---3---0-|
||------2-----2---2---2-------2----|-----2---2-----2-------2-------2---|
||----2---2-----2-------2---2---2--|--0--------------------------------|
||--0------------------------------|-----------------------------------|
||---------------------------------|-----------------------------------|

  G                                  C
------------------3---------------|------------------0---------------|
----------0---------------0-------|----------1---------1-----1-------|
------0-----0---0---0---0---0---0-|------0-----0---0-----0-----0---0-|
----0---0-----0-------0-------0---|----2---2-----2---------2-----2---|
----------------------------------|--3-------------------------------|
--3-------------------------------|----------------------------------|

  F                                  E
-------------------1---------------|------------------0-----------------|
-----------1---------------1-------|----------0---------------(0)-------|
-------2-----2---2---2---2---2---2-|------1-----1---1---1---1-----1---1-|
-----3---3-----3-------3-------3---|----2---2-----2-------2---------2---|
-----------------------------------|------------------------------------|
--1--------------------------------|--0---------------------------------|

  A
------------------0---------------|------------------0------0-------|
----------2---------------2-------|----------2----------------2---3-|
------2-----2---2---2---2---2---2-|------2-----2---2---2------------|
----2---2-----2-------2-------2---|----2---2-----2-------2------2---|
--0-------------------------------|--0------------------------------|
----------------------------------|---------------------------------|

  Dm                         Dm
--------------1-----------|--------------1-----------|
--------3-----------3-----|--------3-----------3-----|
-----2-----2-----2-----2--|-----2-----2-----2-----2--|
--0-----------------------|--0-----------------------|
--------------------------|--------------------------|
--------------------------|--------------------------|

  Dsus2                                                   Asus4
-----------------0----------|--------------0-----------|----------------------0---------------|
-----------3--------3-------|--------3--------3--------|--------------3---------3-----3-------|
--------2-----2--------2----|-----2-----2--------2-----|----------2-----2---2-----2-----2---2-|
--0-------------------------|--0--------------------0--|--------2---2-----2---------2-----2---|
----------------------------|--------------------------|--0-----------------------------------|
----------------------------|--------------------------|--------------------------------------|

                                     A
------------------0---------------|------------------0-------0-------|-------------------||
----------3---------3-----3-------|----------2---------2-------2-----|--2----------------||
------2-----2---2-----2-----2---2-|------2-----2---2-----2-------2---|--2----------------||
----2---2-----2---------2-----2---|----2---2-----2---------2-------2-|--2----------------||
--0-------------------------------|--0-------------------------------|-------------------||
----------------------------------|----------------------------------|-------------------||



Login to Edit
Edit
YouTube
Video
View Sheet Music
Sheet
Music
Voice / Instrument / Track Legend
Instr.
Map
Print
Speed:
Play Intro (login for the full song)
Play
Intro
Sustain:
Download midi (intro) ...

 Rate:
5 star
4 star
3 star
2 star
1 star
 

Comments (0)
 

No comments yet...

Comment on this tab   -   Unhelpful comments are exterminated.
  Your Guest Name:
      [Member Login]
  Comments:
 

Don't understand the tab?
See "How to Read Piano Tabs".
Supported tags:
<i>italics</i>
<b>bold</b>
<u>underline</u>
<tab>tab lines</tab>
  Are you a spam robot?

If not, solve the equation:




[719 TabNabbers online]
©2020 TabNabber.com - Musician Supported Contact us Advertising Merchandise Privacy Policy Terms of Use facebook Twitter