TabNabber Tabs   Musician Supported
  Music Tabs
Espa˝ol English
Franšais Русский
Artist: # A B C D E F G H I J K L M N O P Q R S T U V W X Y Z
guitar

Guitar Tab, Chords



(0 from 0 votes)
6,028 Views, Last Update 7 years ago
by: asassa
guest
[Guest]
|-------------------------------------------|
|-------------------------------------------|
|---------4---------------------------------|
|--1---4--4---6------1----4--3-3-4--2-------|
|--1---4--2---6------1----4--3-3-2--2-------|
|--1---4------6------1----4--3-3----2-------|

|-------------------------------------------|
|-------------------------------------------|
|---------4---------------------------------|
|--1---4--4---6------1----4--3-3-4-4-4--4-4-|
|--1---4--2---6------1----4--3-3-2-2-2--2-2-|
|--1---4------6------1----4--3-3------------|




|-------------------------------------------------|
|-------------------------------------------------|
|----Nothing is played during---------------------|
|-----------this part-----------------------------|
|-------------------------------------------------|
|-------------------------------------------------|


0:45          0:48        0:52         0:56
|-------------------------------------------------|
|-------------------------------------------------|
|-------------------------------------------------|
|--1--1-------1--1--------1--1---------1--1-------|
|--1--1-------1--1--------1--1---------1--1-------|
|--1--1-------1--1--------1--1---------1--1-------|



|-------------------------------------------------|
|-------------------------------------------------|
|-------------------------------------------------|
|---6----9---11----6----8---9----11----6----8-----|
|---6--8-9---11----6----8---9----11----6----8-----|
|---6--8-9---11----6----8---9----11----6----8-----|





|-------------------------------------------|
|-------------------------------------------|
|---------4---------------------------------|
|--1---4--4---6------1----4--3-3-4--2-------|
|--1---4--2---6------1----4--3-3-2--2-------|
|--1---4------6------1----4--3-3----2-------|
                                                  
|-----------------------------------------------|
|-----------------------------------------------|
|---------4-------------------------------------|
|--1---4--4---6------1----4--3-3-9--9---9---6---|
|--1---4--2---6------1----4--3-3-9--9---9-8-6---|
|--1---4------6------1----4--3-3-9--9---9-8-6---|




|-------------------------------------------------|
|-------------------------------------------------|
|----Nothing is played during---------------------|
|-----------this part-----------------------------|
|-------------------------------------------------|
|-------------------------------------------------|


|-------------------------------------------------|
|-------------------------------------------------|
|-------------------------------------------------|
|--1--1-------1--1--------1--1---------1--1-------|
|--1--1-------1--1--------1--1---------1--1-------|
|--1--1-------1--1--------1--1---------1--1-------|



|-------------------------------------------------|
|-------------------------------------------------|
|-------------------------------------------------|
|---6----9---11----6----8---9----11----6----8-----|
|---6--8-9---11----6----8---9----11----6----8-----|
|---6--8-9---11----6----8---9----11----6----8-----|



|-------------------------------------------|
|-------------------------------------------|
|---------4---------------------------------|
|--1---4--4---6------1----4--3-3-4--2-------|
|--1---4--2---6------1----4--3-3-2--2-------|
|--1---4------6------1----4--3-3----2-------|
                                                  
|-----------------------------------------------|
|-----------------------------------------------|
|---------4-------------------------------------|
|--1---4--4---6------1----4--3-3-9--9---9---6---|
|--1---4--2---6------1----4--3-3-9--9---9-8-6---|
|--1---4------6------1----4--3-3-9--9---9-8-6---|



|-------------------------------------------------|
|-------------------------------------------------|
|-------------------------------------------------|
|--8--9-8-7---8----6-4-3---8---9-8-7---8----------|
|--8--9-8-7---8----6-4-3---8---9-8-7---8----------|
|--8--9-8-7---8----6-4-3---8---9-8-7---8---4--3---|



|-----------------------|
|-----------------------|
|-----------------------|
|---9--11----6----8-----|  x2
|---9--11----6----8-----|
|---9--11----6----8-----|


|-------------------------------------------------|
|-------------------------------------------------|
|-------------------------------------------------|
|---1-3-4--3-4-6--4-6-8--8-9-11-\-----------------|
|---1-3-4--3-4-6--4-6-8--8-9-11-\-----------------|
|---1-3-4--3-4-6--4-6-8--8-9-11-\-----------------|




|-------------------------------------------|
|-------------------------------------------|
|---------4---------------------------------|
|--1---4--4---6------1----4--3-3-4--2-------|
|--1---4--2---6------1----4--3-3-2--2-------|
|--1---4------6------1----4--3-3----2-------|
                                               
|-------------------------------------------|
|-------------------------------------------|
|---------4---------------------------------|
|--1---4--4---6------1----4--3-3-4-4-4--4-4-|
|--1---4--2---6------1----4--3-3-2-2-2--2-2-|
|--1---4------6------1----4--3-3------------|

|-------------------------------------------|
|-------------------------------------------|
|---------4---------------------------------|
|--1---4--4---6------1----4--3-3-4--2-------|
|--1---4--2---6------1----4--3-3-2--2-------|
|--1---4------6------1----4--3-3----2-------|

|-------------------------------------------|
|-------------------------------------------|
|---------4---------------------------------|
|--1---4--4---6------1---4--6-8-9---8-9-6-1-|
|--1---4--2---6------1---4--6-8-9---8-9-6-1-|
|--1---4------6------1---4--6-8-9---8-9-6-1-|


Login to Edit
Edit
YouTube
Video
View Sheet Music
Sheet
Music
Print
Speed:
Play Intro (login for the full song)
Play
Intro
Sustain:
Download midi (intro) ...

 Rate:
5 star
4 star
3 star
2 star
1 star
 

Comments (0)
 

No comments yet...

Comment on this tab   -   Unhelpful comments are exterminated.
  Your Guest Name:
      [Member Login]
  Comments:
 

Don't understand the tab?
See "How to Read Guitar Tabs".
Supported tags:
<i>italics</i>
<b>bold</b>
<u>underline</u>
<tab>tab lines</tab>
  Are you a spam robot?

If not, solve the equation:




[299 TabNabbers online]
©2021 TabNabber.com - Musician Supported Contact us Advertising Merchandise Privacy Policy Terms of Use facebook Twitter