TabNabber Tabs   Musician Supported
  Music Tabs
Espa˝ol English
Franšais Русский
Artist: # A B C D E F G H I J K L M N O P Q R S T U V W X Y Z
Piano

Piano Tab, Chords



(0 from 0 votes)
5,774 Views, Last Update 7 years ago
by: beccasmith


New Tabber
[New Recruit]
Intro
4|-||---b-g-b-g-b-g-b-g--|---a-F-a-F-a-F-a-F--|---g-e-g-e-g-e-g-e--|---F----g----a---||-
4|-||--------------------|--------------------|--------------------|---d----e----F---||-
2|-||---e----------------|---e----------------|---e----------------|---e----e----e---||-

4|-||---b-g-b-g-b-g-b-g--|---a-F-a-F-a-F-a-F--|---g-e-g-e-g-e-g-e--|---g---||-
4|-||--------------------|--------------------|--------------------|---e---||-
2|-||---e----------------|---e----------------|---e----------------|---e---||-

4|-||---b-g-b-g-b-g-b-g--|---a-F-a-F-a-F-a-F--|---g-e-g-e-g-e-g-e--|---F----g----a---||-
4|-||--------------------|--------------------|--------------------|---d----e----F---||-
2|-||---e----------------|---e----------------|---e----------------|---e----e----e---||-

5|-||---------------c----|--------------------|-------------------||-
4|-||---b-g-b-g-b-g---g--|---a-F-a-F-a-F-b-F--|---g-e-g--a-g-F-g--||-
2|-||---e----------------|---e----------------|---e---------------||-


Verse 1

eb||---7---7---7---7----|---5---5---5---5----|---3---3---3---3----|---2----3----5---||

Bb||-----8---8---8---8--|-----7---7---7---7--|-----5---5---5---5--|---3----5----7---||
Gb||--------------------|--------------------|--------------------|-----------------||
Db||--------------------|--------------------|--------------------|-----------------||
Ab||--------------------|--------------------|--------------------|-----------------||
Eb||--(0)---------------|--(0)---------------|--(0)---------------|--(0)--(0)--(0)--||


4|-||---b-g-b-g-b-g-b-g--|---a-F-a-F-a-F-a-F--|---g-e-g-e-g-e-g-e--|---g---||-
4|-||--------------------|--------------------|--------------------|---e---||-
2|-||---e----------------|---e----------------|---e----------------|---e---||-

4|-||---b-g-b-g-b-g-b-g--|---a-F-a-F-a-F-a-F--|---g-e-g-e-g-e-g-e--|---F----g----a---||-
4|-||--------------------|--------------------|--------------------|---d----e----F---||-
2|-||---e----------------|---e----------------|---e----------------|---e----e----e---||-

5|-||---------------c----|--------------------|-------------------||-
4|-||---b-g-b-g-b-g---g--|---a-F-a-F-a-F-b-F--|---g-e-g--a-g-F-g--||-
2|-||---e----------------|---e----------------|---e---------------||-

Pre-chorus

3|-||--c-g-g-b-g-g---c-g-g-b-g-g-----F-g-b-g-F-----e-g-b-g-e--||-A
2|-||------------------------------b-------------e------------||-

3|-||--c-g-g-b-g-g---c-g-g-b-g-g---d-a-g-b-g-a---D-a-g-b-g-a--||-

Chorus
4|-||--------e-------------e-----------d-e-d-----------e------||-
3|-||--e-g-b---b-g---c-g-b---b-g---d-a-------a-----g-b---b-g--||-
2|-||--------------------------------------------e------------||-

4|-||--------e-------------e-----------d-e-d-----------e------||-
3|-||--e-g-b---b-g---c-g-b---b-g---d-a-------a-----g-b---b-g--||-
2|-||--------------------------------------------g------------||-

4|-||--------e-------------e-----------d-e-d-----------e------||-
3|-||--e-g-b---b-g---c-g-b---b-g---d-a-------a-----g-b---b-g--||-
2|-||--------------------------------------------e------------||-

4|-||--------e-------------e-----------d-e-d----||-
3|-||--e-g-b---b-g---c-g-b---b-g---d-a-------a--||-

Pre-verse or ending of the chorus (as you preffer to call it)

4|-||---b-g-b-g-b-g-b-g--|---a-F-a-F-a-F-a-F--|---g-e-g-e-g-e-g-e--|---F----g----a---||-
4|-||--------------------|--------------------|--------------------|---d----e----F---||-
2|-||---e----------------|---e----------------|---e----------------|---e----e----e---||-

5|-||---------------c----|--------------------|-------------------||-
4|-||---b-g-b-g-b-g---g--|---a-F-a-F-a-F-b-F--|---g-e-g--a-g-F-g--||-
2|-||---e----------------|---e----------------|---e---------------||-

Verse 2

eb||---7---7---7---7----|---5---5---5---5----|---3---3---3---3----|---2----3----5---||

Bb||-----8---8---8---8--|-----7---7---7---7--|-----5---5---5---5--|---3----5----7---||
Gb||--------------------|--------------------|--------------------|-----------------||
Db||--------------------|--------------------|--------------------|-----------------||
Ab||--------------------|--------------------|--------------------|-----------------||
Eb||--(0)---------------|--(0)---------------|--(0)---------------|--(0)--(0)--(0)--||


4|-||---b-g-b-g-b-g-b-g--|---a-F-a-F-a-F-a-F--|---g-e-g-e-g-e-g-e--|---g---||-
4|-||--------------------|--------------------|--------------------|---e---||-
2|-||---e----------------|---e----------------|---e----------------|---e---||-

4|-||---b-g-b-g-b-g-b-g--|---a-F-a-F-a-F-a-F--|---g-e-g-e-g-e-g-e--|---F----g----a---||-
4|-||--------------------|--------------------|--------------------|---d----e----F---||-
2|-||---e----------------|---e----------------|---e----------------|---e----e----e---||-

5|-||---------------c----|--------------------|-------------------||-
4|-||---b-g-b-g-b-g---g--|---a-F-a-F-a-F-b-F--|---g-e-g--a-g-F-g--||-
2|-||---e----------------|---e----------------|---e---------------||-

Pre-chorus

3|-||--c-g-g-b-g-g---c-g-g-b-g-g-----F-g-b-g-F-----e-g-b-g-e--||-A
2|-||------------------------------b-------------e------------||-

3|-||--c-g-g-b-g-g---c-g-g-b-g-g---d-a-g-b-g-a---D-a-g-b-g-a--||-

Chorus
4|-||--------e-------------e-----------d-e-d-----------e------||-
3|-||--e-g-b---b-g---c-g-b---b-g---d-a-------a-----g-b---b-g--||-
2|-||--------------------------------------------e------------||-

4|-||--------e-------------e-----------d-e-d-----------e------||-
3|-||--e-g-b---b-g---c-g-b---b-g---d-a-------a-----g-b---b-g--||-
2|-||--------------------------------------------g------------||-

4|-||--------e-------------e-----------d-e-d-----------e------||-
3|-||--e-g-b---b-g---c-g-b---b-g---d-a-------a-----g-b---b-g--||-a
2|-||--------------------------------------------e------------||-

Intrumental (only piano and violins at the start)(2:35 minutes of the song)

5|-||-----------------------------------------------|---------------------------------c-d---||-
4|-||-----------------------------------------------|---------------c--C-d-e-F-g-a--b-------||-
3|-||-----------------------------------------------|----e-F-g--a-b-------------------------||-
2|-||-----------------------------------------------|--e------------------------------------||-

After a while the guitar end the intrumental with the next (2:50)

4|-||---b-g-b-g-b-g-b-g--|---a-F-a-F-a-F-a-F--|---g-e-g-e-g-e-g-e--|---F----g----a---||-
4|-||--------------------|--------------------|--------------------|---d----e----F---||-
2|-||---e----------------|---e----------------|---e----------------|---e----e----e---||-

5|-||---------------c----|--------------------|-------------------|-------------------------------||-
4|-||---b-g-b-g-b-g---g--|---a-F-a-F-a-F-b-F--|---g-e-g--a-g-F-g--|--C-d-C-c----------------------||-
3|-||--------------------|--------------------|-------------------|----------b-a-g-F-e-d-c--------||-
2|-||---e----------------|---e----------------|---e---------------|------------------------b-a-g-e||-

Chorus
4|-||--------e-------------e-----------d-e-d-----------e------||-
3|-||--e-g-b---b-g---c-g-b---b-g---d-a-------a-----g-b---b-g--||-
2|-||--------------------------------------------e------------||-

4|-||--------e-------------e-----------d-e-d-----------e------||-
3|-||--e-g-b---b-g---c-g-b---b-g---d-a-------a-----g-b---b-g--||-
2|-||--------------------------------------------g------------||-

4|-||--------e-------------e-----------d-e-d-----||-
3|-||--e-g-b---b-g---c-g-b---b-g---d-a-------a---||-

4|-||--------e-------------e-----------d-e-d-----------e------||-
3|-||--e-g-b---b-g---c-g-b---b-g---d-a-------a-----g-b---b-g--||-
2|-||--------------------------------------------e------------||-

4|-||--------e-------------e-----------d-e-d-----------e------||-
3|-||--e-g-b---b-g---c-g-b---b-g---d-a-------a-----g-b---b-g--||-
2|-||--------------------------------------------g------------||-

4|-||--------e-------------e-----------d-e-d-----||-
3|-||--e-g-b---b-g---c-g-b---b-g---d-a-------a---||-

Outro

4|-||---b-g-b-g-b-g-b-g--|---a-F-a-F-a-F-a-F--|---g-e-g-e-g-e-g-e--|---F----g----a---||-
4|-||--------------------|--------------------|--------------------|---d----e----F---||-
2|-||---e----------------|---e----------------|---e----------------|---e----e----e---||-
                                                                     
4|-||---b-g-b-g-b-g-b-g--|---a-F-a-F-a-F-a-F--|---g-e-g-e-g-e-g-e--|---g-e-g-e-g-e-g-e--||-
2|-||---e----------------|---e----------------|---e----------------|---e----------------||-



Login to Edit
Edit
YouTube
Video
View Sheet Music
Sheet
Music
Voice / Instrument / Track Legend
Instr.
Map
Print
Speed:
Play Intro (login for the full song)
Play
Intro
Sustain:
Download midi (intro) ...

 Rate:
5 star
4 star
3 star
2 star
1 star
 

Comments (0)
 

No comments yet...

Comment on this tab   -   Unhelpful comments are exterminated.
  Your Guest Name:
      [Member Login]
  Comments:
 

Don't understand the tab?
See "How to Read Piano Tabs".
Supported tags:
<i>italics</i>
<b>bold</b>
<u>underline</u>
<tab>tab lines</tab>
  Are you a spam robot?

If not, solve the equation:




[249 TabNabbers online]
©2020 TabNabber.com - Musician Supported Contact us Advertising Merchandise Privacy Policy Terms of Use facebook Twitter