TabNabber Tabs   Musician Supported
  Music Tabs
Espa˝ol English
Franšais Русский
Artist: # A B C D E F G H I J K L M N O P Q R S T U V W X Y Z
guitar

Guitar Tab, Chords



(0 from 0 votes)
16,423 Views, Last Update 9 years ago
by: dragmire


Tab Master
[Tab Master]
e|3--0--------3--0--------0--------3-3-0----------0----------|
b|5--0--1--1--5--0--1--0--1--3--1--1-3-1--3--1----1--3--1----|
g|5--0--2--0--5--0--2--0--2--4--2--0-0-2--4--2----2--4--2----|
d|------3--2--------3--0-----5--3---------5--3-------5--3----|
a|---------3-------------------------------------------------|
e|-----------------------------------------------------------|


e|0--3-------0--------3-3-0------3-3-----0-0---------3-3-0-0-|
b|1--5--1----1--3--1--1-3-1--3-3-5-5-1-1-1-1-3-3-1-1-1-3-1-1-|
g|2--5--2----2--4--2--0-0-2--4-4-5-5-2-2-2-2-4-4-2-2-0-0-2-2-|
d|------3-------5--3---------5-5-----3-3-----5-5-3-3---------|
a|-----------------------------------------------------------|
e|-----------------------------------------------------------|

                                                  You play the part after the measures twice.
e|--------1-1-8-8--------12-12---------10-10|-353----------3-353---------0-3--------0-3----------|
b|3-3-1---1-1-9-9-0--5-5-13-13-----3-3-12-12|----5---353--5-----5---353-----3----------1---------|
g|4-4-2---2-2-9-9-0--5-5-12-12-----4-4-12-12|-----------5--------------5-------------------------|
d|5-5-3-3---------0--5-5-----------5-5------|------3---3-----------------------------------------|
a|------------------------------------------|-3-----------3--0----0------0-----------------------|
e|-----------------------------3-3----------|---------------------------------3-3-3-3----1-1-1-1-|





e|3---------3---------3----------------------------------------------|
b|5---------5---------5----------------------------------------------|
g|5---------5---------5----------------------------------------------|
d|------------------------------5----------------------------------|
a|------------------------------3----------------------------------|
e|---------3---------3---------33-------------------------------------|


Login to Edit
Edit
YouTube
Video
View Sheet Music
Sheet
Music
Print
Speed:
Play Intro (login for the full song)
Play
Intro
Sustain:
Download midi (intro) ...

 Rate:
5 star
4 star
3 star
2 star
1 star
 

Comments (0)
 

No comments yet...

Comment on this tab   -   Unhelpful comments are exterminated.
  Your Guest Name:
      [Member Login]
  Comments:
 

Don't understand the tab?
See "How to Read Guitar Tabs".
Supported tags:
<i>italics</i>
<b>bold</b>
<u>underline</u>
<tab>tab lines</tab>
  Are you a spam robot?

If not, solve the equation:




[165 TabNabbers online]
©2020 TabNabber.com - Musician Supported Contact us Advertising Merchandise Privacy Policy Terms of Use facebook Twitter