TabNabber Tabs   Musician Supported
  Music Tabs
Espa˝ol English
Franšais Русский
Artist: # A B C D E F G H I J K L M N O P Q R S T U V W X Y Z
bass

Bass Guitar Tab, Chords



(5 from 1 votes)
12,898 Views, Last Update 9 years ago
by: DANNYBASSMAN93
guest

Tabber
[Tabber]
ENIGMA - THE RETURN TO INNOCENCE BASS TAB

MAIN RIFFT(VERSE)
G|--------------------------------|
D|--------------------------------|
A|--------------------------------|
E|-6--66--1--11--8--88--11--1111--|

OR

MAIN RIFFT #2(CHORUS) (SOMEONE'S CHANTING ..I THINK IT'S AN INDIAN)
G|----------------------------------------------------------------|
D|----------------------------------------------------------------|
A|--------------------------------------------------6-6-6-6-6-6-6-|
E|-6-6-6-6-6-6-6-6--1-1-1-1-1-1-1--8-8-8-8-8-8-8-8----------------|

EITHER WAY THEY SOUND GREAT AND MATCH THE SONG
_____________________________________________________________________________________

INTRO

(SOMEONE STARTS CHANTING)

That’s not the beginning of the end
That’s the return to yourself
The return to innocence

Love - devotion
G|--------------------------------|
D|--------------------------------|
A|--------------------------------|
E|-6--66--1--11--8--88--11--1111--|

Feeling - emotion
G|--------------------------------|
D|--------------------------------|
A|--------------------------------|
E|-6--66--1--11--8--88--11--1111--|

Love - devotion
G|--------------------------------|
D|--------------------------------|
A|--------------------------------|
E|-6--66--1--11--8--88--11--1111--|

Feeling - emotion
G|--------------------------------|
D|--------------------------------|
A|--------------------------------|
E|-6--66--1--11--8--88--11--1111--|


VERSE

Don’t be afraid to be weak
G|--------------------------------|
D|--------------------------------|
A|--------------------------------|
E|-6--66--1--11--8--88--11--1111--|

Don’t be too proud to be strong
G|--------------------------------|
D|--------------------------------|
A|--------------------------------|
E|-6--66--1--11--8--88--11--1111--|

Just look into your heart my friend
G|--------------------------------|
D|--------------------------------|
A|--------------------------------|
E|-6--66--1--11--8--88--11--1111--|

That will be the return to yourself
G|--------------------------------|
D|--------------------------------|
A|--------------------------------|
E|-6--66--1--11--8--88--11--1111--|

The return to innocence
G|--------------------------------|
D|--------------------------------|
A|--------------------------------|
E|-6--66--1--11--8--88--11--1111--|



CHORUS
G|----------------------------------------------------------------|
D|----------------------------------------------------------------|
A|--------------------------------------------------6-6-6-6-6-6-6-|
E|-6-6-6-6-6-6-6-6--1-1-1-1-1-1-1--8-8-8-8-8-8-8-8----------------|(X3)


VERSE II

If you want, then start to laugh
If you must, then start to cry
G|--------------------------------|
D|--------------------------------|
A|--------------------------------|
E|-6--66--1--11--8--88--11--1111--|

Be yourself don’t hide
Just believe in destiny
G|--------------------------------|
D|--------------------------------|
A|--------------------------------|
E|-6--66--1--11--8--88--11--1111--|

Don’t care what people say
Just follow your own way
G|--------------------------------|
D|--------------------------------|
A|--------------------------------|
E|-6--66--1--11--8--88--11--1111--|

Don’t give up and use the chance
To return to innocence
G|--------------------------------|
D|--------------------------------|
A|--------------------------------|
E|-6--66--1--11--8--88--11--1111--|


BRIDGE

That’s not the beginning of the end
That’s the return to yourself
The return to innocence

G|--------------------------------|
D|--------------------------------|
A|--------------------------------|
E|-6--66--1--11--8--88--11--1111--|(X2)


CHORUS II
G|----------------------------------------------------------------|
D|----------------------------------------------------------------|
A|--------------------------------------------------6-6-6-6-6-6-6-|
E|-6-6-6-6-6-6-6-6--1-1-1-1-1-1-1--8-8-8-8-8-8-8-8----------------|(X3)


VERSE III

Don’t care what people say
Follow just your own way
G|--------------------------------|
D|--------------------------------|
A|--------------------------------|
E|-6--66--1--11--8--88--11--1111--|

Follow just your own way
Don’t give up, don’t give up
To return, to return to innocence

If you want then laugh
If you must then cry
G|--------------------------------|
D|--------------------------------|
A|--------------------------------|
E|-6--66--1--11--8--88--11--1111--|

Be yourself don’t hide
Just believe in destiny
G|--------------------------------|
D|--------------------------------|
A|--------------------------------|
E|-6--66--1--11--8--88--11--1111--|


OUTRO

PLAY CHORUS UNTIL SONG FADES
G|----------------------------------------------------------------|
D|----------------------------------------------------------------|
A|--------------------------------------------------6-6-6-6-6-6-6-|
E|-6-6-6-6-6-6-6-6--1-1-1-1-1-1-1--8-8-8-8-8-8-8-8----------------|

AND END ON THIS:
G|-----------|
D|-----------|
A|-----------|
E|-6~--------|
_____________________________________________________________________________________

FOR ANY MORE TABS OR IF YOU HAVE ANY REQUEST, COMMENT OR SUGGESTION EMAIL ME AT:

danieli.castro8@gmail.com OR JOIN BASSMASTA.NET AND ADD ME (DANNYBASSMAN93)

ENJOY !!!


Login to Edit
Edit
YouTube
Video
View Sheet Music
Sheet
Music
Print
Speed:
Play Intro (login for the full song)
Play
Intro
Sustain:
Download midi (intro) ...

1 Votes
5 star: 100%  (1)
4 star:  (0)
3 star:  (0)
2 star:  (0)
1 star:  (0)
0 star:  (0)
 Rate:
5 star
4 star
3 star
2 star
1 star
 

Comments (0)
 

No comments yet...

Comment on this tab   -   Unhelpful comments are exterminated.
  Your Guest Name:
      [Member Login]
  Comments:
 

Don't understand the tab?
See "How to Read Guitar Tabs".
Supported tags:
<i>italics</i>
<b>bold</b>
<u>underline</u>
<tab>tab lines</tab>
  Are you a spam robot?

If not, solve the equation:




[563 TabNabbers online]
©2021 TabNabber.com - Musician Supported Contact us Advertising Merchandise Privacy Policy Terms of Use facebook Twitter