TabNabber Tabs   Musician Supported
  Music Tabs
Espa˝ol English
Franšais Русский
Artist: # A B C D E F G H I J K L M N O P Q R S T U V W X Y Z
Piano

Piano Tab, Chords



(0 from 0 votes)
10,281 Views, Last Update 9 years ago
by: Anonymous
guest
[Guest]
D|---------------------------------------------------------------|
A|---------------------------------------------------------------|
F|---------------------------------------------------------------|
C|0---0---0---0---0---0---0---0---0---0---0---0---0---0---0---0--|
G|--0---0---0---0---0---0---0---0---0---0---0---0---0---0---0---0|
C|---------------------------------------------------------------|

D|-------------------|
A|-------------------|
F|-------------------|  x4
C|3-----5-----7---7--|
G|--5-----7-----8---8|
C|-------------------|

D|-------------------------|
A|-------------------------|
F|-------------------------|
C|12------10-----8-----8---|
G|---13------12----10----10|
C|-------------------------|

D|-------------------|
A|-------------------|
F|-------------------|  x4
C|3-----5-----7---7--|
G|--5-----7-----8---8|
C|-------------------|

D|-------------------------|
A|-------------------------|
F|-------------------------|
C|12------10-----8-----8---|
G|---13------12----10----10|
C|-------------------------|


D|--------------------------------|
A|--------------------------------|
F|--------------------------------|
C|0---0---0---0---0---0---0---0---|
G|--0---0---0---0---0---0---0----0|
C|--------------------------------|

Clean Chorus:

D|-----------------------------------------------------------|
A|-----------------------------------------------------------|
F|-----------------------------------------------------------|
C|8----8----8----8----5----5----7----7-----0----0----0----0--|
G|--8----8----8----8----5----5----7----7-----0----0----0----0|
C|-----------------------------------------------------------|

D|------------------------------------------------------------|
A|------------------------------------------------------------|
F|------------------------------------------------------------|
C|10----10----10----10------8---8---8---8-----5---5----7---7--|
G|---10----10----10----10-----8---8---8---8-----5---5----7---7|
C|------------------------------------------------------------|


D|---------------------------------------------------|
A|---------------------------------------------------|
F|---------------------------------------------------|
C|3---3---/---7---7---/--12----12----\----10----10---|
G|--0---0------0---0--------10----10---------10----10|
C|---------------------------------------------------|


D|---------------------------------------------------------------------|
A|---------------------------------------------------------------------|
F|---------------------------------------------------------------------|
C|8---8---8---8-----5---5-----7---7-----0---0---0---0---0---0---0---0--|
G|--8---8---8---8-----5---5-----7---7-----0---0---0---0---0---0---0---0|
C|---------------------------------------------------------------------|

Now Chorus with distorsion!
D|-----------------------------------------------|
A|-----------------------------------------------|
F|-----------------------------------------------|
C|8-8-8-8-8-8-8-8-5-5-5-5-7-7-7-7-0-0-0-0-0-0-0-0|
G|8-8-8-8-8-8-8-8-5-5-5-5-7-7-7-7-0-0-0-0-0-0-0-0|
C|8-8-8-8-8-8-8-8-5-5-5-5-7-7-7-7-0-0-0-0-0-0-0-0|


D|-------------------------------------------------------|
A|-------------------------------------------------------|
F|-------------------------------------------------------|
C|10-10-10-10-10-10-10-10-8-8-8-8-8-8-8-8-5-5-5-5-7-7-7-7|
G|10-10-10-10-10-10-10-10-8-8-8-8-8-8-8-8-5-5-5-5-7-7-7-7|
C|10-10-10-10-10-10-10-10-8-8-8-8-8-8-8-8-5-5-5-5-7-7-7-7|

D|-----------------------------------------------|
A|-----------------------------------------------|
F|-----------------------------------------------|
C|8-8-8-8-8-8-8-8-5-5-5-5-7-7-7-7-0-0-0-0-0-0-0-0|
G|8-8-8-8-8-8-8-8-5-5-5-5-7-7-7-7-0-0-0-0-0-0-0-0|
C|8-8-8-8-8-8-8-8-5-5-5-5-7-7-7-7-0-0-0-0-0-0-0-0|


And after some times you do:
D|---------|
A|---------|
F|---------|
C|-0----0-0|  Repeat 4 times.
G|-0----0-0|
C|-0----0-0|

In this part the verse guitar is played too...

Solo:
D|----------------|
A|----------------|
F|-------15---14--|
C|----------------|
G|--12------------|
C|----------------|

D|--------------------------------------------12---13---12--|
A|-------------------------------------15~------------------|
F|---------------14---15---12~----14------------------------|
C|--15~~---14p12--------------------------------------------|
G|----------------------------------------------------------|
C|----------------------------------------------------------|

D|----------------------------------------15--13------12--13--17b18--|
A|-------------------15---------------------------15-----------------|
F|---------------------------14--15--12------------------------------|
C|------14---15--12------12------------------------------------------|
G|--12---------------------------------------------------------------|
C|-------------------------------------------------------------------|

D|--15--13--12----------------|
A|--------------15---13b15~~--|
F|----------------------------|
C|----------------------------|
G|----------------------------|
C|----------------------------|

Then: Chorus


After chorus:
D|-----------------------------------------------|
A|-----------------------------------------------|
F|-----------------------------------------------|
C|8-8-8-8-8-8-8-8-5-5-5-5-7-7-7-7-0-0-0-0-0-0-0-0|
G|8-8-8-8-8-8-8-8-5-5-5-5-7-7-7-7-0-0-0-0-0-0-0-0|
C|8-8-8-8-8-8-8-8-5-5-5-5-7-7-7-7-0-0-0-0-0-0-0-0|


D|-----------------------------------------------------------------------|
A|-----------------------------------------------------------------------|
F|-----------------------------------------------------------------------|
C|10-10-10-10-10-10-10-10-8-8-8-8-8-8-8-8-3-3-3-3-3-3-3-3-0-0-0-0-0-0-0-0|
G|10-10-10-10-10-10-10-10-8-8-8-8-8-8-8-8-3-3-3-3-3-3-3-3-0-0-0-0-0-0-0-0|
C|10-10-10-10-10-10-10-10-8-8-8-8-8-8-8-8-3-3-3-3-3-3-3-3-0-0-0-0-0-0-0-0|


End:

D|------------------------------------------------------------|
A|------------------------------------------------------------|
F|------------------------------------------------------------|
C|10-10-10-10-10-10-10-10-8-8-8-8-8-8-8-8-5-5-5-5-7-7-7-7--(0)|
G|10-10-10-10-10-10-10-10-8-8-8-8-8-8-8-8-5-5-5-5-7-7-7-7--(0)|
C|10-10-10-10-10-10-10-10-8-8-8-8-8-8-8-8-5-5-5-5-7-7-7-7--(0)|


Login to Edit
Edit
YouTube
Video
View Sheet Music
Sheet
Music
Voice / Instrument / Track Legend
Instr.
Map
Print
Speed:
Play Intro (login for the full song)
Play
Intro
Sustain:
Download midi (intro) ...

 Rate:
5 star
4 star
3 star
2 star
1 star
 

Comments (0)
 

No comments yet...

Comment on this tab   -   Unhelpful comments are exterminated.
  Your Guest Name:
      [Member Login]
  Comments:
 

Don't understand the tab?
See "How to Read Piano Tabs".
Supported tags:
<i>italics</i>
<b>bold</b>
<u>underline</u>
<tab>tab lines</tab>
  Are you a spam robot?

If not, solve the equation:




[517 TabNabbers online]
©2020 TabNabber.com - Musician Supported Contact us Advertising Merchandise Privacy Policy Terms of Use facebook Twitter