TabNabber Tabs   Musician Supported
  Music Tabs
Espa˝ol English
Franšais Русский
Artist: # A B C D E F G H I J K L M N O P Q R S T U V W X Y Z
guitar

Guitar Tab, Chords



(0 from 0 votes)
10,212 Views, Last Update 9 years ago
by: Enzola


Tabbenator
[Tabbenator]
*THIS TAB WAS NOT TABBED BY ME, ONLY PROVIDED FROM A DIFFERENT SOURCE FOR EDUCATIONAL PURPOSES*



E--------------------------------------------------------------------------------------|
B--------------------------------------------------------------------------------------|
G-------5-----------7---7---5-----------------------5---------5---------5-----------7--|
D---7-----7---7---5-----------7---7---5---------7-----7---7-----7---7-----7---7---5----|
A-5---8-----5---5-----5---5-----5---8---7-----5---5-----5---5-----5---5-----5---8------| x3
D--------------------------------------------------------------------------------------|

        ^           ^       ^                       ^         ^         ^
E----------------------------------------------------------------------------------------|
B----------------------------------------------------------------------------------------|
G-------5-----------7---7---5-----------------------5---------5---------5----------------|
D---7-----7---7---5-----------7---7---5---------7-----7---7-----7---7-----7---7---5------|
A-5---8-----5---5-----5---5-----5---8---7-----5---5-----5---5-----5---5-----5---8---7~---|
D----------------------------------------------------------------------------------------|

E-------------------------------|
B-------------------------------|
G-------------------------------|
D-------------------------------|
A---------------------------15--| x4
D-0--0-12-0--0-10-0--0-h15------|

E-----------------------------------|
B-----------------------------------|
G-----------------------------------|
D-----------------------------------|
A-13-12-12-12~-12-12-13---------15--| x4
D--0--0--0--0---0--0--0--0-h15------|

E------|
B-15~--|
G-14~--|
D-12~--|
A-12~--|
D-12~--|

E-----------------------------------|
B-----------------------------------|
G-----------------------------------|
D-----------------------------------|
A-13-12-12-12~-12-12-13---------15--| x2
D--0--0--0--0---0--0--0--0-h15------|
        pm     pm

E-----------------------------------------------------------------------|
B-----------------------------------------------------------------------|
G-----------------------------------------------------------------------|
D------------------------------15----10-10--0-xx-3-0-xx-5-0-xx-3-0------|
A-13-12-12-12~-12-12-13--------15----10-10--0-xx-3-0-xx-5-0-xx-3-0------|
D--0--0--0--0---0--0--0--0-h15-15-0-h10-10--0-xx-3-0-xx-5-0-xx-3-0-7-8~-|
        pm     pm

E-------------------------------|----------------------------------|
B-------------------------------|----------------------------------|
G-------------------------------|----------------------------------|
D-------------------------------|----------------------------------|
A---------------------------15--|------------------------------15--|
D-0--0-12-0--0-10-0--0-h15------|-0--0-12-0--0-10p0-000--0-h15-----|
                                              pm- - - -|

E-------------------------------|------------------------------------|
B-------------------------------|-------------------------------15~--|
G-------------------------------|-------------------------------14~--|
D-------------------------------|-------------------------------12~--|
A---------------------------15--|---------------------------15--12~--|
D-0--0-12-0--0-10-0--0-h15------|-0--0-12-0--0-10-0--0-h15------12~--|
        pm     pm

E---------------------------------------------------------------------------------------|
B---------------------------------------------------------------------------------------|
G-------5-----------7-------5-----------7-(7)------5-----------7-------5---------5------|
D---7-----7---7---5-----7-----7---7---5--------7-----7---7---5-----7-----7---7-----7~---|
A-5---5-----5---5-----5---5-----5---5--------5---5-----5---5-----5---5-----5---5--------|
D---------------------------------------------------------------------------------------|

E-----------------------------------|----------------------------------------|
B-----------------------------------|----------------------------------------|
G-----------------------------------|----------------------------------------|
D-----------------------------------|------------------------------15----10--|
A-13-12-12-12~-12-12-13---------15--|-13-12-12-12~-12-12-13--------15----10--|
D--0--0--0--0---0--0--0--0-h15------|--0--0--0--0---0--0--0--0-h15-15-0-h10--|
        pm     pm                           pm    pm

E-----------------------------------|
B-----------------------------------|
G-----------------------------------|
D-----------------------------------|
A-13-12-12-12~-12-12-13---------15--|
D--0--0--0--0---0--0--0--0-h15------|
        pm     pm

E-------------------------------------------------------------------|
B-------------------------------------------------------------------|
G-------------------------------------------------------------------|
D----------------101010--0--0h3-3-0h5-5--0--0---------0--------5-0--|
A-777-888-7-7-7--101010--0--0h3-3-0h5-5--0--0-------3-0------5-5-0--| x2
D-333-333-5-5-5--101010--0--0h3-3-0h5-5--0--0-0h3h5---0-0h3h5--5-0--|
                                pm          pm

E------------------------|
B------------------------|
G------------------------|
D----------------101010--|
A-777-888-7-7-7--101010--|
D-333-333-5-5-5--101010--|

E-------------------------------|
B-------------------------------|
G-------------------------------|
D-------------------------------|
A---------------------------15--| x3
D-0--0-12-0--0-10-0--0-h15------|

E---------------------------------------------------------------|
B---------------------------------------------------------------|
G---------------------------------------------------------------|
D---------------------------------------------------------------|
A---------------------------------------------------------------|
D-0000-0-00-00---000---0000-0-00-00---000---0000-0-00-00---000--|

E-----------------------------------------|
B-----------------------------------------|
G-----------------------------------------|
D-----------------------------------------|
A-----------------------------------------|
D-0000-0-00-00---0000-0000-0-00-00---000--|

E------------------------------------------------------------------|
B------------------------------------------------------------------|
G------------------------------------------------------------------|
D------------------------------------------------------------------|
A------------------------------------------------------------------|
D-0000-0-00-00---000----0000-0-00-00---000----0000-0-00-00---0000--|

E-------------------------------------------------------------------|
B-------------------------------------------------------------------|
G-------------------------------------------------------------------|
D----------------101010--0--0h3-3-0h5-5--0--0---------0--------5-0--|
A-777-888-7-7-7--101010--0--0h3-3-0h5-5--0--0-------3-0------5-5-0--| x2
D-333-333-5-5-5--101010--0--0h3-3-0h5-5--0--0-0h3h5---0-0h3h5--5-0--|
                                pm          pm

E------------------------|
B------------------------|
G------------------------|
D----------------101010--|
A-777-888-7-7-7--101010--|
D-333-333-5-5-5--101010--|

E-------------------------------------------------------------------|
B-------------------------------------------------------------------|
G-------------------------------------------------------------------|
D-0000-0-00---00---0000-0-00---00--0000-0-00---00---0000-0-00---00--|
A-0000-0-00---00---0000-0-00---00--0000-0-00---00---0000-0-00---00--| x2
D-0000-0-00---00---0000-0-00---00--0000-0-00---00---0000-0-00---00--|

E------------------------------------|---------------------------------------------|
B------------------------------------|---------------------------------------------|
G------------------------------------|---------------------------------------------|
D------------------------------------|---------------------------------------------|
A-5~--6~--15~--13~--5~--6~--15~--13~-|-5~--6~--15~--13~--5~--6~--15~--13~--//17b~--|
D------------------------------------|---------------------------------------------|

E---------------------------------------------------------------------------------------|
B---------------------------------------------------------------------------------------|
G---------------------------------------------------------------------------------------|
D---------------------------------------------------------------------------------------|
A---------5-------5----3-----5/7--------3----5------8-------7---3-----5/7-------3----5--| 
D-PM-0000--0-00-0---00---0000----0-00-0---00---0000--0-00-0--00---0000---0-00-0---00----|
                                                     
E--------------------------------------------------------
B--------------------------------------------------------
G--------------------------------------------------------
D--------------------------------------------------------
A---------5-------5------0h3h5------7--------3------0h3h5
D-PM-0000--0-00-0---0h3h5------0000---0-00-0---0h3h5-----

                                                       x2
E---------------------------------------------------------|
B---------------------------------------------------------|
G---------------------------------------------------------|
D---------------------------------------------------------|
A------8-------7------0h3h5-----7---------3--------0h3h5--| 
D-0000--0-00-0---0h3h5------0000---0-00-0-----0h3h5-------|

E--------------------------------------------------------------------------------------|
B--------------------------------------------------------------------------------------|
G-------5-----------7---7---5-----------------------5---------5---------5-----------7--|
D---7-----7---7---5-----------7---7---5---------7-----7---7-----7---7-----7---7---5----|
A-5---8-----5---5-----5---5-----5---8---7-----5---5-----5---5-----5---5-----5---8------| x4
D--------------------------------------------------------------------------------------|

        ^                x3       ^          ^              ^                x4
E--------------------------|------------------------|--------------------------|
B--------------------------|------------------------|--------------------------|
G-------5------------------|-------5---------(5)----|-------5------------------|
D---7-----7---7-------5-7--|---7-----7---7-------7--|---7-----7---7-------5-7--|
A-5---5-----5---5-5-7------|-5---5-----5---5--------|-5---5-----5---5-5-7------|
D--------------------------|------------------------|--------------------------|

                                                      x3
E------------------------------|------------------------|
B------------------------------|------------------------|
G------------------------------|------------------------|
D------------------------------|------------------------|
A------------------------------|------------------------|
D-12-00-10-00-12-0-10-13-12-00-|-10-00-12-0-10-13-12-00-|
     pm    pm   pm          pm      pm   pm          pm

                                                        4x
E---------------------------------------------------------|
B---------------------------------------------------------|
G---------------------------------------------------------|
D-12-0000-10-0000-12-0000-13-12-0000-10-0000-12-00-10-00--|
A-12-0000-10-0000-12-0000-13-12-0000-10-0000-12-00-10-00--|
D-12-0000-10-0000-12-0000-13-12-0000-10-0000-12-00-10-00--|
     pm-|    pm-|    pm-|       pm-|    pm-|    pm    pm

E-----------------------------------|
B-----------------------------------|
G-----------------------------------|
D-----------------------------------|
A-13-12-12-12~-12-12-13---------15--| x2
D--0--0--0--0---0--0--0--0-h15------|
        pm     pm

E------------------------------------------------------------------------|
B------------------------------------------------------------------------|
G------------------------------------------------------------------------|
D------------------------------15----10-10--0-xx-3-0-xx-5-0-xx-3-0-------|
A-13-12-12-12~-12-12-13--------15----10-10--0-xx-3-0-xx-5-0-xx-3-0-------|
D--0--0--0--0---0--0--0--0-h15-15-0-h10-10--0-xx-3-0-xx-5-0-xx-3-0-7-8~--|
        pm    pm

E------------------------------------------|
B--------------------------------8---------|
G--------------------------------7---------|
D----------------101010--0--3-0--5-0--3-0--|
A-777-888-7-7-7--101010--0--3-0--5-0--3-0--| x2
D-333-333-5-5-5--101010--0--3-0--5-0--3-0--|

E------------------------|
B------------------------|
G------------------------|
D----------------101010--|
A-777-888-7-7-7--101010--|
D-333-333-5-5-5--101010--|

E----------------------------------|-------------------------|
B----------------------------------|-------------------------|
G----------------------------------|-------------------------|
D-00-0--3-0-00-0--2-0--------------|-00-0--3-0-00-0--2--0----|
A-00-0--3-0-00-0--2-0-------0h3h5--|-00-0--3-0-00-0--2--0----|
D-00-0--3-0-00-0--2-0--0h3h5-------|-00-0--3-0-00-0--2--0----|
  pm--|   pm----|  pm  pm-------|    pm--|   pm--------------|   pm

                      x4
E-------------------------|
B-------------------------|
G-------------------------|
D-----------0h3h5---------|
A------0h3h5-----0h3h5----|
D-0h3h5-------------------|
 pm-----------------------|


Login to Edit
Edit
YouTube
Video
View Sheet Music
Sheet
Music
Print
Speed:
Play Intro (login for the full song)
Play
Intro
Sustain:
Download midi (intro) ...

 Rate:
5 star
4 star
3 star
2 star
1 star
 

Comments (0)
 

No comments yet...

Comment on this tab   -   Unhelpful comments are exterminated.
  Your Guest Name:
      [Member Login]
  Comments:
 

Don't understand the tab?
See "How to Read Guitar Tabs".
Supported tags:
<i>italics</i>
<b>bold</b>
<u>underline</u>
<tab>tab lines</tab>
  Are you a spam robot?

If not, solve the equation:




[130 TabNabbers online]
©2020 TabNabber.com - Musician Supported Contact us Advertising Merchandise Privacy Policy Terms of Use facebook Twitter