TabNabber Tabs   Musician Supported
  Music Tabs
Espa˝ol English
Franšais Русский
Artist: # A B C D E F G H I J K L M N O P Q R S T U V W X Y Z
guitar

Guitar Tab, Chords



(0 from 0 votes)
14,486 Views, Last Update 9 years ago
by: Enzola


Tabbenator
[Tabbenator]
*THIS TAB WAS NOT TABBED BY ME, ONLY PROVIDED FROM A DIFFERENT SOURCE FOR EDUCATIONAL PURPOSES*



Capo 2
Intro:

e-------------------------I--------------
B--9----------------------I----10-9-7----
G--9----11-13-11-9--------I--9--------9h8
D--9--9------------11-9-7-I-7------------
A--7----------------------I--------------
E-------------------------I--------------

e------------------------I------------------
B-9----------------------I----10-9----------
G-9----11-13-11-9--------I--9------9--8p7h8
D-9--9------------11-9-7-I-7----------------
A-7----------------------I------------------
E------------------------I------------------

e---------------------------------------
B-9-12-10-9------7----------9-7-5-------
G-9---------11-9-8----8-11-6-------8-6--
D-9--------------9--9------7------------
A-7--------------9---------7------------
E---------------------------------------

e------------------------------------
B------------7-9h10-9-7--------------
G-----6----8-----------9---8p7h8-----
D---7---7--9-------------------------
A--7-----7-9-------------------------
E------------------------------------

e---------------------------------------
B-9-12-10-9------7----------9-7-5-------
G-9---------11-9-8----8-11-6-------8-6--
D-9--------------9--9------7------------
A-7--------------9---------7------------
E---------------------------------------

e------------------------------------
B------------7-9h10-9-7--------------
G-----6----8-----------9---8p7h8-----
D---7---7--9-------------------------
A--7-----7-9-------------------------
E------------------------------------

e----------------------------------
B-----9-10-12--9--9-7--------------
G-7-9----------9------9-8---8-9-8--
D--------------9-----------9-------
A--------------7----------9--------
E----------------------------------

riff 1:
e----------------------
B----------------------
G------4--4--4---------
D----6---7-6---4-6-7-6-


[BmBm
]               [AA
] [AA
] chico Mendez lo mataron                [GG
] era un defensor y un angel           [DD
] de toda la amazonia (riff) [BmBm
]             [AA
] el murio a sangre fria                 [GG
] lo sabia a color de melo           [DD
] Y tambien la policia riff 2: e-2-----3---2-----3-------- B---3----3----3----3------- G-----2---2-----2---2------ [F#mF#m
]               [BmBm
] Cuando los angeles lloran                [GG
] lluvia cae sobre la aldea           [DD
] sobre el campanario           [AA
] pues alguien murio Chorus:          [DD
] Un angel cayo e-------------------- B-------5--------5--- G---4-4---4----4---4- D-----------7-------- [GG
]          [DD
] un angel murio [AA
]          [DD
] un angel se fue [GG
]     [DD
]     [AA
] Y no volvera riff 3: e:-------------------------------------- B:----/9-9-9-9-9-9--5-5/7-7-7-7-7-4-4/5- G:-------------------------------------- e:------------------------------ B:----5-5-5-5------------------- G:------------6-6-4-4----------- [BmBm
]             [AA
] Cuando el asesino huia            [GG
] chico Mendez se moria                [DD
] la selva se ahogaba en llanto (riff 1) [BmBm
]               [AA
] el dejo dos lindos crios           [GG
] una esposa valerosa           [DD
] y una selva en agonia (riff 2) [F#mF#m
]               [BmBm
] Cuando los angeles lloran                [GG
] es por cada arbol que muere                [DD
] cada estrella que se apaga      [AA
] oh no noo no Chorus:          [DD
] Un angel cayo riff3: e-------------------- B-------5--------5--- G---4-4---4----4---4- D-----------7-------- [GG
]          [DD
] un angel murio [AA
]          [DD
] un angel se fue [GG
]     [DD
]     [AA
] Y no volvera          [DD
] Un angel cayo e--------------------- B-------5--------5---- G---4-4---4----4---4-- D-----------7--------- [GG
]          [DD
] un angel murio [AA
]          [DD
] un angel se fue [GG
]               [DD
] se fue volando en madrugada repeat just a little: e------------- B------------- G---6-6-9-9--- D------------- riff: e---------------------------- B---9-9-9-9-9-9-10-10-10-10-9 G---9-9-9-9-9-9-9---9--9--9-9 D---------------------------- solo: e------------------------------ B-------8-8/9--9h12-13-9-7-5-4- G-5-6-8------------------------ e---------------------------- B---4-4-4-4-5-7-9-5--7-5-5-4- G---------------------------- D---------------------------- e---------------------------- B---------------------------- G-6-4-9-8-------------------- D---------7-6---------------- e----------------------9--7-9--12- B----------------------10-9-10-9-- G----------9-8---6-7-9------------ D---/6-6-6-----6------------------ e-11-12-14-12-12-11-11-9---------------------- B------------------------12-10-10-9----------- G-----------------------------------8/9\8/9--- D--------------------------------------------- e------------------------------ B------------------------------ G------11-9-8-9-11-9-8--------- D-10-11----------------10/11--- [BmBm
]                Cuando los angeles lloran [GG
]               [DD
]          [AA
] cuando los angeles lloran--ohhh ee ahh... (riff 1) D----9-11-11-9-11-- [BmBm
]
Song Chord Charts:
Bm
A
G
D
F#m


Login to Edit
Edit
YouTube
Video
View Sheet Music
Sheet
Music
Print
Speed:
Play Intro (login for the full song)
Play
Intro
Sustain:
Download midi (intro) ...

 Rate:
5 star
4 star
3 star
2 star
1 star
 

Comments (0)
 

No comments yet...

Comment on this tab   -   Unhelpful comments are exterminated.
  Your Guest Name:
      [Member Login]
  Comments:
 

Don't understand the tab?
See "How to Read Guitar Tabs".
Supported tags:
<i>italics</i>
<b>bold</b>
<u>underline</u>
<tab>tab lines</tab>
  Are you a spam robot?

If not, solve the equation:




[945 TabNabbers online]
©2020 TabNabber.com - Musician Supported Contact us Advertising Merchandise Privacy Policy Terms of Use facebook Twitter