TabNabber Tabs   Musician Supported
  Music Tabs
Espa˝ol English
Franšais Русский
guitar

Guitar Tab, Chords



(0 from 0 votes)
11,855 Views, Last Update 11 years ago
by: Zayt Syroninn
guest
[Guest]
Chorus
e---------------------------------------------------------------------|
b---------------------------------------------------------------------|
g---------------------------------------------------------------------|
D--5-5-5-5-5-5-5-5-\8-8-8-8-8-8-8-8-/1-1-1-1-1-1-1-1-1-1-1-1-1-1-1-1--|
A--5-5-5-5-5-5-5-5-\8-8-8-8-8-8-8-8-/1-1-1-1-1-1-1-1-1-1-1-1-1-1-1-1--|
D--5-5-5-5-5-5-5-5-\8-8-8-8-8-8-8-8-/1-1-1-1-1-1-1-1-1-1-1-1-1-1-1-1--|
Verse 2
e--------------------------|
b--------------------------|
g--------------------------|
D--------------------------|
A--------------------------|
D--5~~---4~~---8~~---10~~--|x2

e-----------------------------------------------------|
b-----------------------------------------------------|
g-----------------------------------------------------|
D--1----------5----------8-----------3-----------1----|
A--1----------5----------8-----------3-----------1----|
D--1----------5----------8-----------3-----------1----|

Breakdown
e---------------------------------------------------------------------|
b---------------------------------------------------------------------|
g---------------------------------------------------------------------|
D--3-3-3-3-3-3-3-3-\5-5-5-5-5-5-5-5-/1-1-1-1-1-1-1-1-1-1-1-1-1-1-1-1--|
A--3-3-3-3-3-3-3-3-\5-5-5-5-5-5-5-5-/1-1-1-1-1-1-1-1-1-1-1-1-1-1-1-1--|
D--3-3-3-3-3-3-3-3-\5-5-5-5-5-5-5-5-/1-1-1-1-1-1-1-1-1-1-1-1-1-1-1-1--|
End On
e------|
b------|
g------|
D--5~~-
A--5~~-
D--5~~-


Login to Edit
Edit
YouTube
Video
View Sheet Music
Sheet
Music
Print
Download Midi
Speed:
Download Midi Intro (login for the full song)
Get
Intro
Sustain:
alt 1     alt 2

 Rate:
5 star
4 star
3 star
2 star
1 star
 

Comments (0)
 

No comments yet...

Comment on this tab
  Your Guest Name:
      [Member Login]
  Comments:
 

Don't understand the tab?
See "How to Read Guitar Tabs".
Supported tags:
<i>italics</i>
<b>bold</b>
<u>underline</u>
<tab>tab lines</tab>
  Are you a spam robot?

If not, solve the equation:




[37433 TabNabbers online]
©2024 TabNabber.com - Musician Supported Contact us Advertising Merchandise Privacy Policy Terms of Use facebook Twitter